 0
SECTION
 2
HEADER
 9
$ACADVER
 1
AC1009
 9
$LIMMIN
10
0.0
20
0.0
 9
$LIMMAX
10
410
20
287
 9
$LTSCALE
40
1.0
 9
$ATTMODE
70
0
 9
$DIMSCALE
40
1.0
 9
$DIMEXO
40
0.0
 9
$LUNITS
70
2
 9
$LUPREC
70
4
 9
$AUNITS
70
0
 9
$AUPREC
70
0
 9
$ELEVATION
40
0.0
 9
$THICKNESS
40
0.0
 9
$LIMCHECK
70
0
 9
$BLIPMODE
70
1
 9
$ANGBASE
50
0.0
 9
$ANGDIR
70
0
 9
$PDMODE
70
67
 9
$PDSIZE
40
-1
 9
$COORDS
70
2
 9
$DWGCODEPAGE
 3
iso8859-1
 0
ENDSEC
0
SECTION
2
TABLES
0
TABLE
2
LTYPE
70
10
0
LTYPE
2
CONTINUOUS
70
64
3
Default-Style
72
65
73
0
40
0
0
LTYPE
2
DASHED_LINE_WIDE
70
64
3
Dashed Line Wide
72
65
73
2
40
6.25
49
5
49
-1.25
0
LTYPE
2
DASHED_LINE_NARROW
70
64
3
Dashed Line Narrow
72
65
73
2
40
12.5
49
10
49
-2.5
0
LTYPE
2
DASH-DOT_LINE_WIDE
70
64
3
Dash-Dot Line Wide
72
65
73
4
40
13.75
49
10
49
-1.25
49
1.25
49
-1.25
0
LTYPE
2
DASH-DOT_LINE_NARROW
70
64
3
Dash-Dot line Narrow
72
65
73
4
40
27.5
49
20
49
-2.5
49
2.5
49
-2.5
0
LTYPE
2
DASH-DOT-DOT_LINE_WIDE
70
64
3
Dash-Dot-Dot Line Wide
72
65
73
6
40
16.25
49
10
49
-1.25
49
1.25
49
-1.25
49
1.25
49
-1.25
0
LTYPE
2
DASH-DOT-DOT_LINE_NARROW
70
64
3
Dash-Dot-Dot Line Narrow
72
65
73
6
40
32.5
49
20
49
-2.5
49
2.5
49
-2.5
49
2.5
49
-2.5
0
LTYPE
2
DOTTED_LINE_WIDE
70
64
3
Dotted Line Wide
72
65
73
2
40
6.25
49
1.25
49
-5
0
LTYPE
2
DOTTED_LINE_NARROW
70
64
3
Dotted Line Narrow
72
65
73
2
40
12.5
49
2.5
49
-10
0
LTYPE
2
GEOMETRY_LINE_1
70
64
3
Geometry Line 1
72
65
73
2
40
.5
49
.25
49
-0.25
0
ENDTAB
0
TABLE
2
LAYER
70
17
0
LAYER
2
0
70
64
62
7
6
CONTINUOUS
0
LAYER
2
DRAWING
70
65
62
-18
6
CONTINUOUS
0
LAYER
2
HATCHING
70
64
62
18
6
CONTINUOUS
0
LAYER
2
DIMENSION
70
64
62
18
6
CONTINUOUS
0
LAYER
2
TEXT
70
64
62
18
6
CONTINUOUS
0
LAYER
2
BLOCK
70
64
62
18
6
CONTINUOUS
0
LAYER
2
MARKING
70
64
62
-132
6
CONTINUOUS
0
LAYER
2
GEOMETRY
70
64
62
18
6
CONTINUOUS
0
LAYER
2
DOCUMENTATION$DRAWING
70
64
62
18
6
CONTINUOUS
0
LAYER
2
DOCUMENTATION$HATCHING
70
64
62
18
6
CONTINUOUS
0
LAYER
2
DOCUMENTATION$DIMENSION
70
64
62
-18
6
CONTINUOUS
0
LAYER
2
DOCUMENTATION$TEXT
70
64
62
18
6
CONTINUOUS
0
LAYER
2
DOCUMENTATION$BLOCK
70
64
62
18
6
CONTINUOUS
0
LAYER
2
DOCUMENTATION$MARKING
70
64
62
18
6
CONTINUOUS
0
LAYER
2
DOCUMENTATION$GEOMETRY
70
64
62
18
6
CONTINUOUS
0
LAYER
2
DRAWINGD4
70
64
62
18
6
CONTINUOUS
0
LAYER
2
D4MATH
70
64
62
-18
6
CONTINUOUS
0
ENDTAB
0
ENDSEC
0
SECTION
2
BLOCKS
0
ENDSEC
0
SECTION
2
ENTITIES
0
POLYLINE
8
DRAWINGD4
62
18
6
CONTINUOUS
66
1
40
0
41
0
0
VERTEX
8
DRAWINGD4
10
32.80815005
20
33.46375129
0
VERTEX
8
DRAWINGD4
10
-32.71504286
20
93.546371
0
SEQEND
8
DRAWINGD4
0
POLYLINE
8
DRAWINGD4
62
18
6
CONTINUOUS
66
1
40
0
41
0
0
VERTEX
8
DRAWINGD4
10
-110.0851054
20
-108.0142487
0
VERTEX
8
DRAWINGD4
10
-32.71504286
20
93.546371
0
SEQEND
8
DRAWINGD4
0
POLYLINE
8
DRAWINGD4
62
18
6
CONTINUOUS
66
1
40
0
41
0
0
VERTEX
8
DRAWINGD4
10
32.80815005
20
-125.2862487
0
VERTEX
8
DRAWINGD4
10
-110.0851054
20
-108.0142487
0
SEQEND
8
DRAWINGD4
0
POLYLINE
8
DRAWINGD4
62
18
6
CONTINUOUS
66
1
40
0
41
0
0
VERTEX
8
DRAWINGD4
10
32.80815005
20
33.46375129
0
VERTEX
8
DRAWINGD4
10
32.80815005
20
-125.2862487
0
SEQEND
8
DRAWINGD4
0
POLYLINE
8
DIMENSION
62
18
6
CONTINUOUS
66
1
40
0
41
0
0
VERTEX
8
DIMENSION
10
32.80815005
20
33.46375129
0
VERTEX
8
DIMENSION
10
40.24244495
20
41.57123298
0
SEQEND
8
DIMENSION
0
POLYLINE
8
DIMENSION
62
18
6
CONTINUOUS
66
1
40
0
41
0
0
VERTEX
8
DIMENSION
10
-32.71504286
20
93.546371
0
VERTEX
8
DIMENSION
10
-25.28074796
20
101.6538527
0
SEQEND
8
DIMENSION
0
POLYLINE
8
DIMENSION
62
18
6
CONTINUOUS
66
1
40
0
41
0
70
1
0
VERTEX
8
DIMENSION
10
39.56659996
20
40.83418919
0
VERTEX
8
DIMENSION
10
38.95811277
20
41.62775289
0
VERTEX
8
DIMENSION
10
38.72339427
20
41.37178027
0
SEQEND
8
DIMENSION
0
POLYLINE
8
DIMENSION
62
18
6
CONTINUOUS
66
1
40
0
41
0
70
1
0
VERTEX
8
DIMENSION
10
-25.95659295
20
100.9168089
0
VERTEX
8
DIMENSION
10
-25.34810576
20
100.1232452
0
VERTEX
8
DIMENSION
10
-25.11338726
20
100.3792178
0
SEQEND
8
DIMENSION
0
POLYLINE
8
DIMENSION
62
18
6
CONTINUOUS
66
1
40
0
41
0
0
VERTEX
8
DIMENSION
10
39.56659996
20
40.83418919
0
VERTEX
8
DIMENSION
10
-25.95659295
20
100.9168089
0
SEQEND
8
DIMENSION
0
TEXT
8
DIMENSION
62
18
6
CONTINUOUS
10
8.157034113
20
72.3499581
11
8.157034113
21
72.3499581
40
4.001008
41
1.25
1
3'6"
50
317.480197
51
0
71
0
72
1
73
0
0
POLYLINE
8
DIMENSION
62
18
6
CONTINUOUS
66
1
40
0
41
0
0
VERTEX
8
DIMENSION
10
32.80815005
20
33.46375129
0
VERTEX
8
DIMENSION
10
43.80815005
20
33.46375129
0
SEQEND
8
DIMENSION
0
POLYLINE
8
DIMENSION
62
18
6
CONTINUOUS
66
1
40
0
41
0
0
VERTEX
8
DIMENSION
10
32.80815005
20
-125.2862487
0
VERTEX
8
DIMENSION
10
43.80815005
20
-125.2862487
0
SEQEND
8
DIMENSION
0
POLYLINE
8
DIMENSION
62
18
6
CONTINUOUS
66
1
40
0
41
0
70
1
0
VERTEX
8
DIMENSION
10
42.80815005
20
33.46375129
0
VERTEX
8
DIMENSION
10
42.63450187
20
32.47894354
0
VERTEX
8
DIMENSION
10
42.98179822
20
32.47894354
0
SEQEND
8
DIMENSION
0
POLYLINE
8
DIMENSION
62
18
6
CONTINUOUS
66
1
40
0
41
0
70
1
0
VERTEX
8
DIMENSION
10
42.80815005
20
-125.2862487
0
VERTEX
8
DIMENSION
10
42.98179822
20
-124.301441
0
VERTEX
8
DIMENSION
10
42.63450187
20
-124.301441
0
SEQEND
8
DIMENSION
0
POLYLINE
8
DIMENSION
62
18
6
CONTINUOUS
66
1
40
0
41
0
0
VERTEX
8
DIMENSION
10
42.80815005
20
33.46375129
0
VERTEX
8
DIMENSION
10
42.80815005
20
-125.2862487
0
SEQEND
8
DIMENSION
0
TEXT
8
DIMENSION
62
18
6
CONTINUOUS
10
40.80764605
20
-45.91124871
11
40.80764605
21
-45.91124871
40
4.001008
41
1.25
1
6'3"
50
90
51
0
71
0
72
1
73
0
0
POLYLINE
8
DIMENSION
62
18
6
CONTINUOUS
66
1
40
0
41
0
0
VERTEX
8
DIMENSION
10
32.80815005
20
-125.2862487
0
VERTEX
8
DIMENSION
10
31.48815005
20
-136.2067615
0
SEQEND
8
DIMENSION
0
POLYLINE
8
DIMENSION
62
18
6
CONTINUOUS
66
1
40
0
41
0
0
VERTEX
8
DIMENSION
10
-110.0851054
20
-108.0142487
0
VERTEX
8
DIMENSION
10
-111.4051054
20
-118.9347615
0
SEQEND
8
DIMENSION
0
POLYLINE
8
DIMENSION
62
18
6
CONTINUOUS
66
1
40
0
41
0
70
1
0
VERTEX
8
DIMENSION
10
31.60815005
20
-135.2139876
0
VERTEX
8
DIMENSION
10
30.6512964
20
-134.9234173
0
VERTEX
8
DIMENSION
10
30.60962084
20
-135.2682041
0
SEQEND
8
DIMENSION
0
POLYLINE
8
DIMENSION
62
18
6
CONTINUOUS
66
1
40
0
41
0
70
1
0
VERTEX
8
DIMENSION
10
-111.2851054
20
-117.9419876
0
VERTEX
8
DIMENSION
10
-110.3282518
20
-118.2325579
0
VERTEX
8
DIMENSION
10
-110.2865762
20
-117.8877712
0
SEQEND
8
DIMENSION
0
POLYLINE
8
DIMENSION
62
18
6
CONTINUOUS
66
1
40
0
41
0
0
VERTEX
8
DIMENSION
10
31.60815005
20
-135.2139876
0
VERTEX
8
DIMENSION
10
-111.2851054
20
-117.9419876
0
SEQEND
8
DIMENSION
0
TEXT
8
DIMENSION
62
18
6
CONTINUOUS
10
-39.59841721
20
-124.5919395
11
-39.59841721
21
-124.5919395
40
4.001008
41
1.25
1
5'8"
50
353.1078974
51
0
71
0
72
1
73
0
0
POLYLINE
8
DIMENSION
62
18
6
CONTINUOUS
66
1
40
0
41
0
0
VERTEX
8
DIMENSION
10
-32.71504286
20
93.546371
0
VERTEX
8
DIMENSION
10
-42.98445841
20
97.48833806
0
SEQEND
8
DIMENSION
0
POLYLINE
8
DIMENSION
62
18
6
CONTINUOUS
66
1
40
0
41
0
0
VERTEX
8
DIMENSION
10
-110.0851054
20
-108.0142487
0
VERTEX
8
DIMENSION
10
-120.354521
20
-104.0722816
0
SEQEND
8
DIMENSION
0
POLYLINE
8
DIMENSION
62
18
6
CONTINUOUS
66
1
40
0
41
0
70
1
0
VERTEX
8
DIMENSION
10
-42.05087518
20
97.12997742
0
VERTEX
8
DIMENSION
10
-42.56590654
20
96.27280609
0
VERTEX
8
DIMENSION
10
-42.24167649
20
96.14834875
0
SEQEND
8
DIMENSION
0
POLYLINE
8
DIMENSION
62
18
6
CONTINUOUS
66
1
40
0
41
0
70
1
0
VERTEX
8
DIMENSION
10
-119.4209377
20
-104.4306423
0
VERTEX
8
DIMENSION
10
-118.9059064
20
-103.573471
0
VERTEX
8
DIMENSION
10
-119.2301364
20
-103.4490136
0
SEQEND
8
DIMENSION
0
POLYLINE
8
DIMENSION
62
18
6
CONTINUOUS
66
1
40
0
41
0
0
VERTEX
8
DIMENSION
10
-42.05087518
20
97.12997742
0
VERTEX
8
DIMENSION
10
-119.4209377
20
-104.4306423
0
SEQEND
8
DIMENSION
0
TEXT
8
DIMENSION
62
18
6
CONTINUOUS
10
-82.60354345
20
-2.933430535
11
-82.60354345
21
-2.933430535
40
4.001008
41
1.25
1
8'6"
50
69.00044849
51
0
71
0
72
1
73
0
0
POLYLINE
8
DRAWINGD4
62
18
6
DASHED_LINE_NARROW
66
1
40
0
41
0
0
VERTEX
8
DRAWINGD4
10
32.80815005
20
33.46375129
0
VERTEX
8
DRAWINGD4
10
-110.0851054
20
-108.0142487
0
SEQEND
8
DRAWINGD4
0
POLYLINE
8
DIMENSION
62
18
6
CONTINUOUS
66
1
40
0
41
0
0
VERTEX
8
DIMENSION
10
32.80815005
20
33.46375129
0
VERTEX
8
DIMENSION
10
25.06878163
20
41.28053941
0
SEQEND
8
DIMENSION
0
POLYLINE
8
DIMENSION
62
18
6
CONTINUOUS
66
1
40
0
41
0
0
VERTEX
8
DIMENSION
10
-110.0851054
20
-108.0142487
0
VERTEX
8
DIMENSION
10
-117.8244738
20
-100.1974606
0
SEQEND
8
DIMENSION
0
POLYLINE
8
DIMENSION
62
18
6
CONTINUOUS
66
1
40
0
41
0
70
1
0
VERTEX
8
DIMENSION
10
25.77236057
20
40.56992231
0
VERTEX
8
DIMENSION
10
24.95036414
20
40.00042967
0
VERTEX
8
DIMENSION
10
25.19471454
20
39.75363494
0
SEQEND
8
DIMENSION
0
POLYLINE
8
DIMENSION
62
18
6
CONTINUOUS
66
1
40
0
41
0
70
1
0
VERTEX
8
DIMENSION
10
-117.1208949
20
-100.9080777
0
VERTEX
8
DIMENSION
10
-116.2988985
20
-100.3385851
0
VERTEX
8
DIMENSION
10
-116.5432489
20
-100.0917903
0
SEQEND
8
DIMENSION
0
POLYLINE
8
DIMENSION
62
18
6
CONTINUOUS
66
1
40
0
41
0
0
VERTEX
8
DIMENSION
10
25.77236057
20
40.56992231
0
VERTEX
8
DIMENSION
10
-117.1208949
20
-100.9080777
0
SEQEND
8
DIMENSION
0
TEXT
8
DIMENSION
62
18
6
CONTINUOUS
10
-47.08177966
20
-28.74748534
11
-47.08177966
21
-28.74748534
40
4.001008
41
1.25
1
7'11"
50
44.7148534
51
0
71
0
72
1
73
0
0
POLYLINE
8
DRAWINGD4
62
18
6
CONTINUOUS
66
1
40
0
41
0
70
1
0
VERTEX
8
DRAWINGD4
10
-18.09269538
20
-34.4844288
42
1
0
VERTEX
8
DRAWINGD4
10
-30.79269538
20
-34.4844288
42
1
0
VERTEX
8
DRAWINGD4
10
-18.09269538
20
-34.4844288
0
SEQEND
8
DRAWINGD4
0
POLYLINE
8
DRAWINGD4
62
18
6
CONTINUOUS
66
1
40
0
41
0
0
VERTEX
8
DRAWINGD4
10
-24.44269538
20
-26.01776213
0
VERTEX
8
DRAWINGD4
10
-24.44269538
20
-42.95109546
0
SEQEND
8
DRAWINGD4
0
POLYLINE
8
DRAWINGD4
62
18
6
CONTINUOUS
66
1
40
0
41
0
0
VERTEX
8
DRAWINGD4
10
-32.90936205
20
-34.4844288
0
VERTEX
8
DRAWINGD4
10
-15.97602872
20
-34.4844288
0
SEQEND
8
DRAWINGD4
0
TEXT
8
TEXT
62
18
6
CONTINUOUS
10
-24.50946003
20
-67.5708019
11
-24.50946003
21
-67.5708019
40
7.62
41
1.25
1
D4 SPRITSAIL
50
0
51
0
71
0
72
1
73
0
0
TEXT
8
TEXT
62
18
6
CONTINUOUS
10
-24.50946003
20
-77.0958019
11
-24.50946003
21
-77.0958019
40
7.62
41
1.25
1
33 sq. ft.
50
0
51
0
71
0
72
1
73
0
0
TEXT
8
TEXT
62
18
6
CONTINUOUS
10
-24.50946003
20
-86.6208019
11
-24.50946003
21
-86.6208019
40
7.62
41
1.25
1
Loose Footed
50
0
51
0
71
0
72
1
73
0
0
TEXT
8
TEXT
62
18
6
CONTINUOUS
10
-24.50946003
20
-96.1458019
11
-24.50946003
21
-96.1458019
40
7.62
41
1.25
1
Grommets on Luff
50
0
51
0
71
0
72
1
73
0
0
ENDSEC
0
EOF
