 0
SECTION
 2
HEADER
 9
$ACADVER
 1
AC1009
 9
$LIMMIN
10
0.0
20
0.0
 9
$LIMMAX
10
410
20
287
 9
$LTSCALE
40
1.0
 9
$ATTMODE
70
0
 9
$DIMSCALE
40
1.0
 9
$DIMEXO
40
0.0
 9
$LUNITS
70
2
 9
$LUPREC
70
4
 9
$AUNITS
70
0
 9
$AUPREC
70
0
 9
$ELEVATION
40
0.0
 9
$THICKNESS
40
0.0
 9
$LIMCHECK
70
0
 9
$BLIPMODE
70
1
 9
$ANGBASE
50
0.0
 9
$ANGDIR
70
0
 9
$PDMODE
70
67
 9
$PDSIZE
40
-1
 9
$COORDS
70
2
 9
$DWGCODEPAGE
 3
iso8859-1
 0
ENDSEC
0
SECTION
2
TABLES
0
TABLE
2
LTYPE
70
10
0
LTYPE
2
CONTINUOUS
70
64
3
Default-Style
72
65
73
0
40
0
0
LTYPE
2
DASHED_LINE_WIDE
70
64
3
Dashed Line Wide
72
65
73
2
40
6.25
49
5
49
-1.25
0
LTYPE
2
DASHED_LINE_NARROW
70
64
3
Dashed Line Narrow
72
65
73
2
40
12.5
49
10
49
-2.5
0
LTYPE
2
DASH-DOT_LINE_WIDE
70
64
3
Dash-Dot Line Wide
72
65
73
4
40
13.75
49
10
49
-1.25
49
1.25
49
-1.25
0
LTYPE
2
DASH-DOT_LINE_NARROW
70
64
3
Dash-Dot line Narrow
72
65
73
4
40
27.5
49
20
49
-2.5
49
2.5
49
-2.5
0
LTYPE
2
DASH-DOT-DOT_LINE_WIDE
70
64
3
Dash-Dot-Dot Line Wide
72
65
73
6
40
16.25
49
10
49
-1.25
49
1.25
49
-1.25
49
1.25
49
-1.25
0
LTYPE
2
DASH-DOT-DOT_LINE_NARROW
70
64
3
Dash-Dot-Dot Line Narrow
72
65
73
6
40
32.5
49
20
49
-2.5
49
2.5
49
-2.5
49
2.5
49
-2.5
0
LTYPE
2
DOTTED_LINE_WIDE
70
64
3
Dotted Line Wide
72
65
73
2
40
6.25
49
1.25
49
-5
0
LTYPE
2
DOTTED_LINE_NARROW
70
64
3
Dotted Line Narrow
72
65
73
2
40
12.5
49
2.5
49
-10
0
LTYPE
2
GEOMETRY_LINE_1
70
64
3
Geometry Line 1
72
65
73
2
40
.5
49
.25
49
-0.25
0
ENDTAB
0
TABLE
2
LAYER
70
15
0
LAYER
2
0
70
64
62
7
6
CONTINUOUS
0
LAYER
2
DRAWING
70
64
62
18
6
CONTINUOUS
0
LAYER
2
HATCHING
70
64
62
18
6
CONTINUOUS
0
LAYER
2
DIMENSION
70
64
62
18
6
CONTINUOUS
0
LAYER
2
TEXT
70
64
62
18
6
CONTINUOUS
0
LAYER
2
BLOCK
70
64
62
18
6
CONTINUOUS
0
LAYER
2
MARKING
70
64
62
-132
6
CONTINUOUS
0
LAYER
2
GEOMETRY
70
64
62
18
6
CONTINUOUS
0
LAYER
2
DOCUMENTATION$DRAWING
70
64
62
18
6
CONTINUOUS
0
LAYER
2
DOCUMENTATION$HATCHING
70
64
62
18
6
CONTINUOUS
0
LAYER
2
DOCUMENTATION$DIMENSION
70
64
62
-18
6
CONTINUOUS
0
LAYER
2
DOCUMENTATION$TEXT
70
64
62
18
6
CONTINUOUS
0
LAYER
2
DOCUMENTATION$BLOCK
70
64
62
18
6
CONTINUOUS
0
LAYER
2
DOCUMENTATION$MARKING
70
64
62
18
6
CONTINUOUS
0
LAYER
2
DOCUMENTATION$GEOMETRY
70
64
62
18
6
CONTINUOUS
0
ENDTAB
0
ENDSEC
0
SECTION
2
BLOCKS
0
ENDSEC
0
SECTION
2
ENTITIES
0
POLYLINE
8
0
62
18
6
CONTINUOUS
66
1
40
0
41
0
70
1
0
VERTEX
8
0
10
39.16092875
20
-17.87458182
42
1
0
VERTEX
8
0
10
26.46092875
20
-17.87458182
42
1
0
VERTEX
8
0
10
39.16092875
20
-17.87458182
0
SEQEND
8
0
0
POLYLINE
8
0
62
18
6
CONTINUOUS
66
1
40
0
41
0
0
VERTEX
8
0
10
32.81092875
20
-9.407915149
0
VERTEX
8
0
10
32.81092875
20
-26.34124848
0
SEQEND
8
0
0
POLYLINE
8
0
62
18
6
CONTINUOUS
66
1
40
0
41
0
0
VERTEX
8
0
10
24.34426209
20
-17.87458182
0
VERTEX
8
0
10
41.27759542
20
-17.87458182
0
SEQEND
8
0
0
POLYLINE
8
DRAWING
62
18
6
CONTINUOUS
66
1
40
0
41
0
0
VERTEX
8
DRAWING
10
103.0371756
20
-168.1001504
0
VERTEX
8
DRAWING
10
103.0371756
20
193.8498496
0
SEQEND
8
DRAWING
0
POLYLINE
8
DRAWING
62
18
6
CONTINUOUS
66
1
40
0
41
0
0
VERTEX
8
DRAWING
10
103.0371756
20
193.8498496
0
VERTEX
8
DRAWING
10
-107.6415649
20
-79.37344471
0
SEQEND
8
DRAWING
0
POLYLINE
8
DRAWING
62
18
6
CONTINUOUS
66
1
40
0
41
0
0
VERTEX
8
DRAWING
10
-107.6415649
20
-79.37344471
0
VERTEX
8
DRAWING
10
103.0371756
20
-168.1001504
0
SEQEND
8
DRAWING
0
TEXT
8
TEXT
62
18
6
CONTINUOUS
10
32.9600187
20
-42.21012977
11
32.9600187
21
-42.21012977
40
7.62
41
1.25
1
BOLGER
50
0
51
0
71
0
72
1
73
0
0
TEXT
8
TEXT
62
18
6
CONTINUOUS
10
32.9600187
20
-51.73512977
11
32.9600187
21
-51.73512977
40
7.62
41
1.25
1
INSTANT BOAT
50
0
51
0
71
0
72
1
73
0
0
TEXT
8
TEXT
62
18
6
CONTINUOUS
10
32.9600187
20
-61.26012977
11
32.9600187
21
-61.26012977
40
7.62
41
1.25
1
SPRIT BOOMED
50
0
51
0
71
0
72
1
73
0
0
TEXT
8
TEXT
62
18
6
CONTINUOUS
10
32.9600187
20
-70.78512977
11
32.9600187
21
-70.78512977
40
7.62
41
1.25
1
LEG O' MUTTON
50
0
51
0
71
0
72
1
73
0
0
TEXT
8
TEXT
62
18
6
CONTINUOUS
10
32.9600187
20
-80.31012977
11
32.9600187
21
-80.31012977
40
7.62
41
1.25
1
59 sq. ft.
50
0
51
0
71
0
72
1
73
0
0
TEXT
8
TEXT
62
18
6
CONTINUOUS
10
32.9600187
20
-89.83512977
11
32.9600187
21
-89.83512977
40
7.62
41
1.25
1
Grommets on Luff
50
0
51
0
71
0
72
1
73
0
0
POLYLINE
8
DIMENSION
62
18
6
CONTINUOUS
66
1
40
0
41
0
0
VERTEX
8
DIMENSION
10
-107.6415649
20
-79.37344471
0
VERTEX
8
DIMENSION
10
-116.3526115
20
-72.65647603
0
SEQEND
8
DIMENSION
0
POLYLINE
8
DIMENSION
62
18
6
CONTINUOUS
66
1
40
0
41
0
0
VERTEX
8
DIMENSION
10
103.0371756
20
193.8498496
0
VERTEX
8
DIMENSION
10
94.32612906
20
200.5668183
0
SEQEND
8
DIMENSION
0
POLYLINE
8
DIMENSION
62
18
6
CONTINUOUS
66
1
40
0
41
0
70
1
0
VERTEX
8
DIMENSION
10
-115.5606981
20
-73.26710955
0
VERTEX
8
DIMENSION
10
-114.8218272
20
-72.59326257
0
VERTEX
8
DIMENSION
10
-115.0968558
20
-72.38119177
0
SEQEND
8
DIMENSION
0
POLYLINE
8
DIMENSION
62
18
6
CONTINUOUS
66
1
40
0
41
0
70
1
0
VERTEX
8
DIMENSION
10
95.11804238
20
199.9561848
0
VERTEX
8
DIMENSION
10
94.37917145
20
199.2823378
0
VERTEX
8
DIMENSION
10
94.65420006
20
199.070267
0
SEQEND
8
DIMENSION
0
POLYLINE
8
DIMENSION
62
18
6
CONTINUOUS
66
1
40
0
41
0
0
VERTEX
8
DIMENSION
10
-115.5606981
20
-73.26710955
0
VERTEX
8
DIMENSION
10
95.11804238
20
199.9561848
0
SEQEND
8
DIMENSION
0
TEXT
8
DIMENSION
62
18
6
CONTINUOUS
10
-11.80515452
20
64.56580466
11
-11.80515452
21
64.56580466
40
4
41
1.25
1
13'7"
50
52.36467554
51
0
71
0
72
1
73
0
0
POLYLINE
8
DIMENSION
62
18
6
CONTINUOUS
66
1
40
0
41
0
0
VERTEX
8
DIMENSION
10
103.0371756
20
193.8498496
0
VERTEX
8
DIMENSION
10
114.0371756
20
193.8498496
0
SEQEND
8
DIMENSION
0
POLYLINE
8
DIMENSION
62
18
6
CONTINUOUS
66
1
40
0
41
0
0
VERTEX
8
DIMENSION
10
103.0371756
20
-168.1001504
0
VERTEX
8
DIMENSION
10
114.0371756
20
-168.1001504
0
SEQEND
8
DIMENSION
0
POLYLINE
8
DIMENSION
62
18
6
CONTINUOUS
66
1
40
0
41
0
70
1
0
VERTEX
8
DIMENSION
10
113.0371756
20
193.8498496
0
VERTEX
8
DIMENSION
10
112.8635274
20
192.8650419
0
VERTEX
8
DIMENSION
10
113.2108238
20
192.8650419
0
SEQEND
8
DIMENSION
0
POLYLINE
8
DIMENSION
62
18
6
CONTINUOUS
66
1
40
0
41
0
70
1
0
VERTEX
8
DIMENSION
10
113.0371756
20
-168.1001504
0
VERTEX
8
DIMENSION
10
113.2108238
20
-167.1153426
0
VERTEX
8
DIMENSION
10
112.8635274
20
-167.1153426
0
SEQEND
8
DIMENSION
0
POLYLINE
8
DIMENSION
62
18
6
CONTINUOUS
66
1
40
0
41
0
0
VERTEX
8
DIMENSION
10
113.0371756
20
193.8498496
0
VERTEX
8
DIMENSION
10
113.0371756
20
-168.1001504
0
SEQEND
8
DIMENSION
0
TEXT
8
DIMENSION
62
18
6
CONTINUOUS
10
111.0371756
20
12.87484963
11
111.0371756
21
12.87484963
40
4
41
1.25
1
14'3"
50
90
51
0
71
0
72
1
73
0
0
POLYLINE
8
DIMENSION
62
18
6
CONTINUOUS
66
1
40
0
41
0
0
VERTEX
8
DIMENSION
10
-107.6415649
20
-79.37344471
0
VERTEX
8
DIMENSION
10
-111.911004
20
-89.5110919
0
SEQEND
8
DIMENSION
0
POLYLINE
8
DIMENSION
62
18
6
CONTINUOUS
66
1
40
0
41
0
0
VERTEX
8
DIMENSION
10
103.0371756
20
-168.1001504
0
VERTEX
8
DIMENSION
10
98.76773656
20
-178.2377975
0
SEQEND
8
DIMENSION
0
POLYLINE
8
DIMENSION
62
18
6
CONTINUOUS
66
1
40
0
41
0
70
1
0
VERTEX
8
DIMENSION
10
-111.5228731
20
-88.58948761
0
VERTEX
8
DIMENSION
10
-110.6826683
20
-89.13175675
0
VERTEX
8
DIMENSION
10
-110.5478719
20
-88.81168694
0
SEQEND
8
DIMENSION
0
POLYLINE
8
DIMENSION
62
18
6
CONTINUOUS
66
1
40
0
41
0
70
1
0
VERTEX
8
DIMENSION
10
99.15586738
20
-177.3161933
0
VERTEX
8
DIMENSION
10
98.31566254
20
-176.7739241
0
VERTEX
8
DIMENSION
10
98.18086612
20
-177.0939939
0
SEQEND
8
DIMENSION
0
POLYLINE
8
DIMENSION
62
18
6
CONTINUOUS
66
1
40
0
41
0
0
VERTEX
8
DIMENSION
10
-111.5228731
20
-88.58948761
0
VERTEX
8
DIMENSION
10
99.15586738
20
-177.3161933
0
SEQEND
8
DIMENSION
0
TEXT
8
DIMENSION
62
18
6
CONTINUOUS
10
-5.407045615
20
-131.1091674
11
-5.407045615
21
-131.1091674
40
4.001008
41
1.25
1
9
50
337.1617565
51
0
71
0
72
1
73
0
0
ENDSEC
0
EOF
