 0
SECTION
 2
HEADER
 9
$ACADVER
 1
AC1009
 9
$LIMMIN
10
0.0
20
0.0
 9
$LIMMAX
10
410
20
287
 9
$LTSCALE
40
1.0
 9
$ATTMODE
70
0
 9
$DIMSCALE
40
1.0
 9
$DIMEXO
40
0.0
 9
$LUNITS
70
2
 9
$LUPREC
70
4
 9
$AUNITS
70
0
 9
$AUPREC
70
0
 9
$ELEVATION
40
0.0
 9
$THICKNESS
40
0.0
 9
$LIMCHECK
70
0
 9
$BLIPMODE
70
1
 9
$ANGBASE
50
0.0
 9
$ANGDIR
70
0
 9
$PDMODE
70
67
 9
$PDSIZE
40
-1
 9
$COORDS
70
2
 9
$DWGCODEPAGE
 3
iso8859-1
 0
ENDSEC
0
SECTION
2
TABLES
0
TABLE
2
LTYPE
70
10
0
LTYPE
2
CONTINUOUS
70
64
3
Default-Style
72
65
73
0
40
0
0
LTYPE
2
DASHED_LINE_WIDE
70
64
3
Dashed Line Wide
72
65
73
2
40
6.25
49
5
49
-1.25
0
LTYPE
2
DASHED_LINE_NARROW
70
64
3
Dashed Line Narrow
72
65
73
2
40
12.5
49
10
49
-2.5
0
LTYPE
2
DASH-DOT_LINE_WIDE
70
64
3
Dash-Dot Line Wide
72
65
73
4
40
13.75
49
10
49
-1.25
49
1.25
49
-1.25
0
LTYPE
2
DASH-DOT_LINE_NARROW
70
64
3
Dash-Dot line Narrow
72
65
73
4
40
27.5
49
20
49
-2.5
49
2.5
49
-2.5
0
LTYPE
2
DASH-DOT-DOT_LINE_WIDE
70
64
3
Dash-Dot-Dot Line Wide
72
65
73
6
40
16.25
49
10
49
-1.25
49
1.25
49
-1.25
49
1.25
49
-1.25
0
LTYPE
2
DASH-DOT-DOT_LINE_NARROW
70
64
3
Dash-Dot-Dot Line Narrow
72
65
73
6
40
32.5
49
20
49
-2.5
49
2.5
49
-2.5
49
2.5
49
-2.5
0
LTYPE
2
DOTTED_LINE_WIDE
70
64
3
Dotted Line Wide
72
65
73
2
40
6.25
49
1.25
49
-5
0
LTYPE
2
DOTTED_LINE_NARROW
70
64
3
Dotted Line Narrow
72
65
73
2
40
12.5
49
2.5
49
-10
0
LTYPE
2
GEOMETRY_LINE_1
70
64
3
Geometry Line 1
72
65
73
2
40
.5
49
.25
49
-0.25
0
ENDTAB
0
TABLE
2
LAYER
70
15
0
LAYER
2
0
70
64
62
7
6
CONTINUOUS
0
LAYER
2
DRAWING
70
64
62
18
6
CONTINUOUS
0
LAYER
2
HATCHING
70
64
62
18
6
CONTINUOUS
0
LAYER
2
DIMENSION
70
64
62
18
6
CONTINUOUS
0
LAYER
2
TEXT
70
64
62
18
6
CONTINUOUS
0
LAYER
2
BLOCK
70
64
62
18
6
CONTINUOUS
0
LAYER
2
MARKING
70
64
62
-132
6
CONTINUOUS
0
LAYER
2
GEOMETRY
70
64
62
18
6
CONTINUOUS
0
LAYER
2
DOCUMENTATION$DRAWING
70
64
62
18
6
CONTINUOUS
0
LAYER
2
DOCUMENTATION$HATCHING
70
64
62
18
6
CONTINUOUS
0
LAYER
2
DOCUMENTATION$DIMENSION
70
64
62
-18
6
CONTINUOUS
0
LAYER
2
DOCUMENTATION$TEXT
70
64
62
18
6
CONTINUOUS
0
LAYER
2
DOCUMENTATION$BLOCK
70
64
62
18
6
CONTINUOUS
0
LAYER
2
DOCUMENTATION$MARKING
70
64
62
18
6
CONTINUOUS
0
LAYER
2
DOCUMENTATION$GEOMETRY
70
64
62
18
6
CONTINUOUS
0
ENDTAB
0
ENDSEC
0
SECTION
2
BLOCKS
0
ENDSEC
0
SECTION
2
ENTITIES
0
POLYLINE
8
0
62
18
6
CONTINUOUS
66
1
40
0
41
0
70
1
0
VERTEX
8
0
10
33.1917331
20
-27.56675741
42
1
0
VERTEX
8
0
10
20.4917331
20
-27.56675741
42
1
0
VERTEX
8
0
10
33.1917331
20
-27.56675741
0
SEQEND
8
0
0
POLYLINE
8
0
62
18
6
CONTINUOUS
66
1
40
0
41
0
0
VERTEX
8
0
10
26.8417331
20
-19.10009074
0
VERTEX
8
0
10
26.8417331
20
-36.03342408
0
SEQEND
8
0
0
POLYLINE
8
0
62
18
6
CONTINUOUS
66
1
40
0
41
0
0
VERTEX
8
0
10
18.37506643
20
-27.56675741
0
VERTEX
8
0
10
35.30839977
20
-27.56675741
0
SEQEND
8
0
0
POLYLINE
8
DRAWING
62
18
6
CONTINUOUS
66
1
40
0
41
0
0
VERTEX
8
DRAWING
10
-125.5491519
20
-165.5999715
0
VERTEX
8
DRAWING
10
103.0371756
20
-168.1001504
0
SEQEND
8
DRAWING
0
POLYLINE
8
DRAWING
62
18
6
CONTINUOUS
66
1
40
0
41
0
0
VERTEX
8
DRAWING
10
103.0371756
20
250.9998496
0
VERTEX
8
DRAWING
10
-125.5491519
20
-165.5999715
0
SEQEND
8
DRAWING
0
POLYLINE
8
DRAWING
62
18
6
CONTINUOUS
66
1
40
0
41
0
0
VERTEX
8
DRAWING
10
103.0371756
20
250.9998496
0
VERTEX
8
DRAWING
10
103.0371756
20
-168.1001504
0
SEQEND
8
DRAWING
0
POLYLINE
8
DIMENSION
62
18
6
CONTINUOUS
66
1
40
0
41
0
0
VERTEX
8
DIMENSION
10
-125.5491519
20
-165.5999715
0
VERTEX
8
DIMENSION
10
-125.6694579
20
-176.5993136
0
SEQEND
8
DIMENSION
0
POLYLINE
8
DIMENSION
62
18
6
CONTINUOUS
66
1
40
0
41
0
0
VERTEX
8
DIMENSION
10
103.0371756
20
-168.1001504
0
VERTEX
8
DIMENSION
10
102.9168695
20
-179.0994925
0
SEQEND
8
DIMENSION
0
POLYLINE
8
DIMENSION
62
18
6
CONTINUOUS
66
1
40
0
41
0
70
1
0
VERTEX
8
DIMENSION
10
-125.658521
20
-175.5993734
0
VERTEX
8
DIMENSION
10
-124.6756714
20
-175.7837819
0
VERTEX
8
DIMENSION
10
-124.671873
20
-175.4365064
0
SEQEND
8
DIMENSION
0
POLYLINE
8
DIMENSION
62
18
6
CONTINUOUS
66
1
40
0
41
0
70
1
0
VERTEX
8
DIMENSION
10
102.9278064
20
-178.0995523
0
VERTEX
8
DIMENSION
10
101.9449568
20
-177.9151437
0
VERTEX
8
DIMENSION
10
101.9411584
20
-178.2624193
0
SEQEND
8
DIMENSION
0
POLYLINE
8
DIMENSION
62
18
6
CONTINUOUS
66
1
40
0
41
0
0
VERTEX
8
DIMENSION
10
-125.658521
20
-175.5993734
0
VERTEX
8
DIMENSION
10
102.9278064
20
-178.0995523
0
SEQEND
8
DIMENSION
0
TEXT
8
DIMENSION
62
18
6
CONTINUOUS
10
-11.34348347
20
-174.8495825
11
-11.34348347
21
-174.8495825
40
4
41
1.25
1
9'0
50
359.3733484
51
0
71
0
72
1
73
0
0
POLYLINE
8
DIMENSION
62
18
6
CONTINUOUS
66
1
40
0
41
0
0
VERTEX
8
DIMENSION
10
103.0371756
20
-168.1001504
0
VERTEX
8
DIMENSION
10
114.0371756
20
-168.1001504
0
SEQEND
8
DIMENSION
0
POLYLINE
8
DIMENSION
62
18
6
CONTINUOUS
66
1
40
0
41
0
0
VERTEX
8
DIMENSION
10
103.0371756
20
250.9998496
0
VERTEX
8
DIMENSION
10
114.0371756
20
250.9998496
0
SEQEND
8
DIMENSION
0
POLYLINE
8
DIMENSION
62
18
6
CONTINUOUS
66
1
40
0
41
0
70
1
0
VERTEX
8
DIMENSION
10
113.0371756
20
-168.1001504
0
VERTEX
8
DIMENSION
10
113.2108238
20
-167.1153426
0
VERTEX
8
DIMENSION
10
112.8635274
20
-167.1153426
0
SEQEND
8
DIMENSION
0
POLYLINE
8
DIMENSION
62
18
6
CONTINUOUS
66
1
40
0
41
0
70
1
0
VERTEX
8
DIMENSION
10
113.0371756
20
250.9998496
0
VERTEX
8
DIMENSION
10
112.8635274
20
250.0150419
0
VERTEX
8
DIMENSION
10
113.2108238
20
250.0150419
0
SEQEND
8
DIMENSION
0
POLYLINE
8
DIMENSION
62
18
6
CONTINUOUS
66
1
40
0
41
0
0
VERTEX
8
DIMENSION
10
113.0371756
20
-168.1001504
0
VERTEX
8
DIMENSION
10
113.0371756
20
250.9998496
0
SEQEND
8
DIMENSION
0
TEXT
8
DIMENSION
62
18
6
CONTINUOUS
10
111.0371756
20
41.44984963
11
111.0371756
21
41.44984963
40
4
41
1.25
1
16'6"
50
90
51
0
71
0
72
1
73
0
0
POLYLINE
8
DIMENSION
62
18
6
CONTINUOUS
66
1
40
0
41
0
0
VERTEX
8
DIMENSION
10
-125.5491519
20
-165.5999715
0
VERTEX
8
DIMENSION
10
-135.1928354
20
-160.3085285
0
SEQEND
8
DIMENSION
0
POLYLINE
8
DIMENSION
62
18
6
CONTINUOUS
66
1
40
0
41
0
0
VERTEX
8
DIMENSION
10
103.0371756
20
250.9998496
0
VERTEX
8
DIMENSION
10
93.3934921
20
256.2912926
0
SEQEND
8
DIMENSION
0
POLYLINE
8
DIMENSION
62
18
6
CONTINUOUS
66
1
40
0
41
0
70
1
0
VERTEX
8
DIMENSION
10
-134.3161369
20
-160.7895688
0
VERTEX
8
DIMENSION
10
-133.6901676
20
-160.0097211
0
VERTEX
8
DIMENSION
10
-133.9946418
20
-159.8426576
0
SEQEND
8
DIMENSION
0
POLYLINE
8
DIMENSION
62
18
6
CONTINUOUS
66
1
40
0
41
0
70
1
0
VERTEX
8
DIMENSION
10
94.2701906
20
255.8102523
0
VERTEX
8
DIMENSION
10
93.64422131
20
255.0304046
0
VERTEX
8
DIMENSION
10
93.94869551
20
254.8633411
0
SEQEND
8
DIMENSION
0
POLYLINE
8
DIMENSION
62
18
6
CONTINUOUS
66
1
40
0
41
0
0
VERTEX
8
DIMENSION
10
-134.3161369
20
-160.7895688
0
VERTEX
8
DIMENSION
10
94.2701906
20
255.8102523
0
SEQEND
8
DIMENSION
0
TEXT
8
DIMENSION
62
18
6
CONTINUOUS
10
-21.77637014
20
48.4724223
11
-21.77637014
21
48.4724223
40
4
41
1.25
1
18'8.5"
50
61.24663427
51
0
71
0
72
1
73
0
0
TEXT
8
TEXT
62
18
6
CONTINUOUS
10
26.55133929
20
-52.66741071
11
26.55133929
21
-52.66741071
40
7.62
41
1.25
1
Laser
50
0
51
0
71
0
72
1
73
0
0
TEXT
8
TEXT
62
18
6
CONTINUOUS
10
26.55133929
20
-62.19241071
11
26.55133929
21
-62.19241071
40
7.62
41
1.25
1
74 sq. ft.
50
0
51
0
71
0
72
1
73
0
0
TEXT
8
TEXT
62
18
6
CONTINUOUS
10
26.55133929
20
-71.71741071
11
26.55133929
21
-71.71741071
40
7.62
41
1.25
1
Loose Footed
50
0
51
0
71
0
72
1
73
0
0
TEXT
8
TEXT
62
18
6
CONTINUOUS
10
26.55133929
20
-81.24241071
11
26.55133929
21
-81.24241071
40
7.62
41
1.25
1
Sleeve on Luff
50
0
51
0
71
0
72
1
73
0
0
ENDSEC
0
EOF
