 0
SECTION
 2
HEADER
 9
$ACADVER
 1
AC1009
 9
$LIMMIN
10
0.0
20
0.0
 9
$LIMMAX
10
410
20
287
 9
$LTSCALE
40
1.0
 9
$ATTMODE
70
0
 9
$DIMSCALE
40
1.0
 9
$DIMEXO
40
0.0
 9
$LUNITS
70
2
 9
$LUPREC
70
4
 9
$AUNITS
70
0
 9
$AUPREC
70
0
 9
$ELEVATION
40
0.0
 9
$THICKNESS
40
0.0
 9
$LIMCHECK
70
0
 9
$BLIPMODE
70
1
 9
$ANGBASE
50
0.0
 9
$ANGDIR
70
0
 9
$PDMODE
70
67
 9
$PDSIZE
40
-1
 9
$COORDS
70
2
 9
$DWGCODEPAGE
 3
iso8859-1
 0
ENDSEC
0
SECTION
2
TABLES
0
TABLE
2
LTYPE
70
10
0
LTYPE
2
CONTINUOUS
70
64
3
Default-Style
72
65
73
0
40
0
0
LTYPE
2
DASHED_LINE_WIDE
70
64
3
Dashed Line Wide
72
65
73
2
40
6.25
49
5
49
-1.25
0
LTYPE
2
DASHED_LINE_NARROW
70
64
3
Dashed Line Narrow
72
65
73
2
40
12.5
49
10
49
-2.5
0
LTYPE
2
DASH-DOT_LINE_WIDE
70
64
3
Dash-Dot Line Wide
72
65
73
4
40
13.75
49
10
49
-1.25
49
1.25
49
-1.25
0
LTYPE
2
DASH-DOT_LINE_NARROW
70
64
3
Dash-Dot line Narrow
72
65
73
4
40
27.5
49
20
49
-2.5
49
2.5
49
-2.5
0
LTYPE
2
DASH-DOT-DOT_LINE_WIDE
70
64
3
Dash-Dot-Dot Line Wide
72
65
73
6
40
16.25
49
10
49
-1.25
49
1.25
49
-1.25
49
1.25
49
-1.25
0
LTYPE
2
DASH-DOT-DOT_LINE_NARROW
70
64
3
Dash-Dot-Dot Line Narrow
72
65
73
6
40
32.5
49
20
49
-2.5
49
2.5
49
-2.5
49
2.5
49
-2.5
0
LTYPE
2
DOTTED_LINE_WIDE
70
64
3
Dotted Line Wide
72
65
73
2
40
6.25
49
1.25
49
-5
0
LTYPE
2
DOTTED_LINE_NARROW
70
64
3
Dotted Line Narrow
72
65
73
2
40
12.5
49
2.5
49
-10
0
LTYPE
2
GEOMETRY_LINE_1
70
64
3
Geometry Line 1
72
65
73
2
40
.5
49
.25
49
-0.25
0
ENDTAB
0
TABLE
2
LAYER
70
16
0
LAYER
2
0
70
64
62
7
6
CONTINUOUS
0
LAYER
2
DRAWING
70
64
62
18
6
CONTINUOUS
0
LAYER
2
HATCHING
70
64
62
18
6
CONTINUOUS
0
LAYER
2
DIMENSION
70
64
62
18
6
CONTINUOUS
0
LAYER
2
TEXT
70
64
62
18
6
CONTINUOUS
0
LAYER
2
BLOCK
70
64
62
18
6
CONTINUOUS
0
LAYER
2
MARKING
70
64
62
-132
6
CONTINUOUS
0
LAYER
2
GEOMETRY
70
64
62
18
6
CONTINUOUS
0
LAYER
2
DOCUMENTATION$DRAWING
70
64
62
18
6
CONTINUOUS
0
LAYER
2
DOCUMENTATION$HATCHING
70
64
62
18
6
CONTINUOUS
0
LAYER
2
DOCUMENTATION$DIMENSION
70
64
62
-18
6
CONTINUOUS
0
LAYER
2
DOCUMENTATION$TEXT
70
64
62
18
6
CONTINUOUS
0
LAYER
2
DOCUMENTATION$BLOCK
70
64
62
18
6
CONTINUOUS
0
LAYER
2
DOCUMENTATION$MARKING
70
64
62
18
6
CONTINUOUS
0
LAYER
2
DOCUMENTATION$GEOMETRY
70
64
62
18
6
CONTINUOUS
0
LAYER
2
FILL
70
64
62
-132
6
CONTINUOUS
0
ENDTAB
0
ENDSEC
0
SECTION
2
BLOCKS
0
ENDSEC
0
SECTION
2
ENTITIES
0
POLYLINE
8
DRAWING
62
18
6
CONTINUOUS
66
1
40
0
41
0
0
VERTEX
8
DRAWING
10
-72.45557229
20
-139.5495734
0
VERTEX
8
DRAWING
10
103.0371756
20
-168.1001504
0
SEQEND
8
DRAWING
0
POLYLINE
8
DRAWING
62
18
6
CONTINUOUS
66
1
40
0
41
0
0
VERTEX
8
DRAWING
10
103.0371756
20
-168.1001504
0
VERTEX
8
DRAWING
10
103.0371756
20
107.0665163
0
SEQEND
8
DRAWING
0
POLYLINE
8
DIMENSION
62
18
6
CONTINUOUS
66
1
40
0
41
0
0
VERTEX
8
DIMENSION
10
-72.45557229
20
-139.5495734
0
VERTEX
8
DIMENSION
10
-89.56565835
20
-127.373985
0
SEQEND
8
DIMENSION
0
POLYLINE
8
DIMENSION
62
18
6
CONTINUOUS
66
1
40
0
41
0
0
VERTEX
8
DIMENSION
10
103.0371756
20
107.0665163
0
VERTEX
8
DIMENSION
10
85.92708952
20
119.2421048
0
SEQEND
8
DIMENSION
0
POLYLINE
8
DIMENSION
62
18
6
CONTINUOUS
66
1
40
0
41
0
70
1
0
VERTEX
8
DIMENSION
10
-88.75089235
20
-127.9537749
0
VERTEX
8
DIMENSION
10
-88.0384281
20
-127.2520665
0
VERTEX
8
DIMENSION
10
-88.32139337
20
-127.0507076
0
SEQEND
8
DIMENSION
0
POLYLINE
8
DIMENSION
62
18
6
CONTINUOUS
66
1
40
0
41
0
70
1
0
VERTEX
8
DIMENSION
10
86.74185553
20
118.6623148
0
VERTEX
8
DIMENSION
10
86.02939128
20
117.9606064
0
VERTEX
8
DIMENSION
10
86.31235654
20
117.7592475
0
SEQEND
8
DIMENSION
0
POLYLINE
8
DIMENSION
62
18
6
CONTINUOUS
66
1
40
0
41
0
0
VERTEX
8
DIMENSION
10
-88.75089235
20
-127.9537749
0
VERTEX
8
DIMENSION
10
86.74185553
20
118.6623148
0
SEQEND
8
DIMENSION
0
TEXT
8
DIMENSION
62
18
6
CONTINUOUS
10
-2.634461061
20
-3.485857954
11
-2.634461061
21
-3.485857954
40
4.001008
41
1.25
1
11'11"
50
54.56423139
51
0
71
0
72
1
73
0
0
POLYLINE
8
DIMENSION
62
18
6
CONTINUOUS
66
1
40
0
41
0
0
VERTEX
8
DIMENSION
10
103.0371756
20
-168.1001504
0
VERTEX
8
DIMENSION
10
114.0371756
20
-168.1001504
0
SEQEND
8
DIMENSION
0
POLYLINE
8
DIMENSION
62
18
6
CONTINUOUS
66
1
40
0
41
0
0
VERTEX
8
DIMENSION
10
103.0371756
20
107.0665163
0
VERTEX
8
DIMENSION
10
114.0371756
20
107.0665163
0
SEQEND
8
DIMENSION
0
POLYLINE
8
DIMENSION
62
18
6
CONTINUOUS
66
1
40
0
41
0
70
1
0
VERTEX
8
DIMENSION
10
113.0371756
20
-168.1001504
0
VERTEX
8
DIMENSION
10
113.2108238
20
-167.1153426
0
VERTEX
8
DIMENSION
10
112.8635274
20
-167.1153426
0
SEQEND
8
DIMENSION
0
POLYLINE
8
DIMENSION
62
18
6
CONTINUOUS
66
1
40
0
41
0
70
1
0
VERTEX
8
DIMENSION
10
113.0371756
20
107.0665163
0
VERTEX
8
DIMENSION
10
112.8635274
20
106.0817085
0
VERTEX
8
DIMENSION
10
113.2108238
20
106.0817085
0
SEQEND
8
DIMENSION
0
POLYLINE
8
DIMENSION
62
18
6
CONTINUOUS
66
1
40
0
41
0
0
VERTEX
8
DIMENSION
10
113.0371756
20
-168.1001504
0
VERTEX
8
DIMENSION
10
113.0371756
20
107.0665163
0
SEQEND
8
DIMENSION
0
TEXT
8
DIMENSION
62
18
6
CONTINUOUS
10
111.0366716
20
-30.51681703
11
111.0366716
21
-30.51681703
40
4.001008
41
1.25
1
10'10"
50
90
51
0
71
0
72
1
73
0
0
POLYLINE
8
DIMENSION
62
18
6
CONTINUOUS
66
1
40
0
41
0
0
VERTEX
8
DIMENSION
10
-72.45557229
20
-139.5495734
0
VERTEX
8
DIMENSION
10
-74.22191844
20
-150.4068301
0
SEQEND
8
DIMENSION
0
POLYLINE
8
DIMENSION
62
18
6
CONTINUOUS
66
1
40
0
41
0
0
VERTEX
8
DIMENSION
10
103.0371756
20
-168.1001504
0
VERTEX
8
DIMENSION
10
101.2708294
20
-178.957407
0
SEQEND
8
DIMENSION
0
POLYLINE
8
DIMENSION
62
18
6
CONTINUOUS
66
1
40
0
41
0
70
1
0
VERTEX
8
DIMENSION
10
-74.06134152
20
-149.4198067
0
VERTEX
8
DIMENSION
10
-73.11719718
20
-149.7493389
0
VERTEX
8
DIMENSION
10
-73.0614294
20
-149.4065493
0
SEQEND
8
DIMENSION
0
POLYLINE
8
DIMENSION
62
18
6
CONTINUOUS
66
1
40
0
41
0
70
1
0
VERTEX
8
DIMENSION
10
101.4314064
20
-177.9703837
0
VERTEX
8
DIMENSION
10
100.487262
20
-177.6408515
0
VERTEX
8
DIMENSION
10
100.4314942
20
-177.9836411
0
SEQEND
8
DIMENSION
0
POLYLINE
8
DIMENSION
62
18
6
CONTINUOUS
66
1
40
0
41
0
0
VERTEX
8
DIMENSION
10
-74.06134152
20
-149.4198067
0
VERTEX
8
DIMENSION
10
101.4314064
20
-177.9703837
0
SEQEND
8
DIMENSION
0
TEXT
8
DIMENSION
62
18
6
CONTINUOUS
10
14.0062672
20
-161.7205511
11
14.0062672
21
-161.7205511
40
4.001008
41
1.25
1
7
50
350.7596155
51
0
71
0
72
1
73
0
0
TEXT
8
TEXT
62
18
6
CONTINUOUS
10
41.86813187
20
-88.19032032
11
41.86813187
21
-88.19032032
40
7.62
41
1.25
1
Naples Sabot
50
0
51
0
71
0
72
1
73
0
0
TEXT
8
TEXT
62
18
6
CONTINUOUS
10
41.86813187
20
-97.71532032
11
41.86813187
21
-97.71532032
40
7.62
41
1.25
1
38 sq. ft.
50
0
51
0
71
0
72
1
73
0
0
TEXT
8
TEXT
62
18
6
CONTINUOUS
10
41.86813187
20
-107.2403203
11
41.86813187
21
-107.2403203
40
7.62
41
1.25
1
Sleeve on Luff
50
0
51
0
71
0
72
1
73
0
0
POLYLINE
8
DRAWING
62
18
6
CONTINUOUS
66
1
40
0
41
0
0
VERTEX
8
DRAWING
10
-72.45557229
20
-139.5495734
0
VERTEX
8
DRAWING
10
103.0371756
20
107.0665163
0
SEQEND
8
DRAWING
0
POLYLINE
8
DRAWING
62
18
6
CONTINUOUS
66
1
40
0
41
0
70
1
0
VERTEX
8
DRAWING
10
50.78430449
20
-66.86106917
42
1
0
VERTEX
8
DRAWING
10
38.08430449
20
-66.86106917
42
1
0
VERTEX
8
DRAWING
10
50.78430449
20
-66.86106917
0
SEQEND
8
DRAWING
0
POLYLINE
8
DRAWING
62
18
6
CONTINUOUS
66
1
40
0
41
0
0
VERTEX
8
DRAWING
10
44.43430449
20
-58.3944025
0
VERTEX
8
DRAWING
10
44.43430449
20
-75.32773584
0
SEQEND
8
DRAWING
0
POLYLINE
8
DRAWING
62
18
6
CONTINUOUS
66
1
40
0
41
0
0
VERTEX
8
DRAWING
10
35.96763782
20
-66.86106917
0
VERTEX
8
DRAWING
10
52.90097116
20
-66.86106917
0
SEQEND
8
DRAWING
0
ENDSEC
0
EOF
