 0
SECTION
 2
HEADER
 9
$ACADVER
 1
AC1009
 9
$LIMMIN
10
0.0
20
0.0
 9
$LIMMAX
10
410
20
287
 9
$LTSCALE
40
1.0
 9
$ATTMODE
70
0
 9
$DIMSCALE
40
1.0
 9
$DIMEXO
40
0.0
 9
$LUNITS
70
2
 9
$LUPREC
70
4
 9
$AUNITS
70
0
 9
$AUPREC
70
0
 9
$ELEVATION
40
0.0
 9
$THICKNESS
40
0.0
 9
$LIMCHECK
70
0
 9
$BLIPMODE
70
1
 9
$ANGBASE
50
0.0
 9
$ANGDIR
70
0
 9
$PDMODE
70
67
 9
$PDSIZE
40
-1
 9
$COORDS
70
2
 9
$DWGCODEPAGE
 3
iso8859-1
 0
ENDSEC
0
SECTION
2
TABLES
0
TABLE
2
LTYPE
70
10
0
LTYPE
2
CONTINUOUS
70
64
3
Default-Style
72
65
73
0
40
0
0
LTYPE
2
DASHED_LINE_WIDE
70
64
3
Dashed Line Wide
72
65
73
2
40
6.25
49
5
49
-1.25
0
LTYPE
2
DASHED_LINE_NARROW
70
64
3
Dashed Line Narrow
72
65
73
2
40
12.5
49
10
49
-2.5
0
LTYPE
2
DASH-DOT_LINE_WIDE
70
64
3
Dash-Dot Line Wide
72
65
73
4
40
13.75
49
10
49
-1.25
49
1.25
49
-1.25
0
LTYPE
2
DASH-DOT_LINE_NARROW
70
64
3
Dash-Dot line Narrow
72
65
73
4
40
27.5
49
20
49
-2.5
49
2.5
49
-2.5
0
LTYPE
2
DASH-DOT-DOT_LINE_WIDE
70
64
3
Dash-Dot-Dot Line Wide
72
65
73
6
40
16.25
49
10
49
-1.25
49
1.25
49
-1.25
49
1.25
49
-1.25
0
LTYPE
2
DASH-DOT-DOT_LINE_NARROW
70
64
3
Dash-Dot-Dot Line Narrow
72
65
73
6
40
32.5
49
20
49
-2.5
49
2.5
49
-2.5
49
2.5
49
-2.5
0
LTYPE
2
DOTTED_LINE_WIDE
70
64
3
Dotted Line Wide
72
65
73
2
40
6.25
49
1.25
49
-5
0
LTYPE
2
DOTTED_LINE_NARROW
70
64
3
Dotted Line Narrow
72
65
73
2
40
12.5
49
2.5
49
-10
0
LTYPE
2
GEOMETRY_LINE_1
70
64
3
Geometry Line 1
72
65
73
2
40
.5
49
.25
49
-0.25
0
ENDTAB
0
TABLE
2
LAYER
70
16
0
LAYER
2
0
70
64
62
7
6
CONTINUOUS
0
LAYER
2
DRAWING
70
64
62
18
6
CONTINUOUS
0
LAYER
2
HATCHING
70
64
62
18
6
CONTINUOUS
0
LAYER
2
DIMENSION
70
64
62
18
6
CONTINUOUS
0
LAYER
2
TEXT
70
64
62
18
6
CONTINUOUS
0
LAYER
2
BLOCK
70
64
62
18
6
CONTINUOUS
0
LAYER
2
MARKING
70
64
62
-132
6
CONTINUOUS
0
LAYER
2
GEOMETRY
70
64
62
18
6
CONTINUOUS
0
LAYER
2
DOCUMENTATION$DRAWING
70
64
62
18
6
CONTINUOUS
0
LAYER
2
DOCUMENTATION$HATCHING
70
64
62
18
6
CONTINUOUS
0
LAYER
2
DOCUMENTATION$DIMENSION
70
64
62
-18
6
CONTINUOUS
0
LAYER
2
DOCUMENTATION$TEXT
70
64
62
18
6
CONTINUOUS
0
LAYER
2
DOCUMENTATION$BLOCK
70
64
62
18
6
CONTINUOUS
0
LAYER
2
DOCUMENTATION$MARKING
70
64
62
18
6
CONTINUOUS
0
LAYER
2
DOCUMENTATION$GEOMETRY
70
64
62
18
6
CONTINUOUS
0
LAYER
2
FILL
70
64
62
-18
6
CONTINUOUS
0
ENDTAB
0
ENDSEC
0
SECTION
2
BLOCKS
0
ENDSEC
0
SECTION
2
ENTITIES
0
POLYLINE
8
DRAWING
62
18
6
CONTINUOUS
66
1
40
0
41
0
70
1
0
VERTEX
8
DRAWING
10
-17.1472039
20
-93.83230661
42
1
0
VERTEX
8
DRAWING
10
-29.8472039
20
-93.83230661
42
1
0
VERTEX
8
DRAWING
10
-17.1472039
20
-93.83230661
0
SEQEND
8
DRAWING
0
POLYLINE
8
DRAWING
62
18
6
CONTINUOUS
66
1
40
0
41
0
0
VERTEX
8
DRAWING
10
-31.96387056
20
-93.83230661
0
VERTEX
8
DRAWING
10
-15.03053723
20
-93.83230661
0
SEQEND
8
DRAWING
0
POLYLINE
8
DRAWING
62
18
6
CONTINUOUS
66
1
40
0
41
0
0
VERTEX
8
DRAWING
10
-23.4972039
20
-85.36563994
0
VERTEX
8
DRAWING
10
-23.4972039
20
-102.2989733
0
SEQEND
8
DRAWING
0
POLYLINE
8
DRAWING
62
18
6
CONTINUOUS
66
1
40
0
41
0
0
VERTEX
8
DRAWING
10
-154.8363706
20
-169.4952945
0
VERTEX
8
DRAWING
10
-14.81887056
20
57.49366927
0
SEQEND
8
DRAWING
0
POLYLINE
8
DRAWING
62
18
6
CONTINUOUS
66
1
40
0
41
0
0
VERTEX
8
DRAWING
10
-14.81887056
20
57.49366927
0
VERTEX
8
DRAWING
10
99.16362944
20
-169.4952945
0
SEQEND
8
DRAWING
0
POLYLINE
8
DRAWING
62
18
6
CONTINUOUS
66
1
40
0
41
0
0
VERTEX
8
DRAWING
10
-154.8363706
20
-169.4952945
0
VERTEX
8
DRAWING
10
99.16362944
20
-169.4952945
0
SEQEND
8
DRAWING
0
TEXT
8
TEXT
62
18
6
CONTINUOUS
10
-23.45803133
20
-114.3207856
11
-23.45803133
21
-114.3207856
40
7.62
41
1.25
1
SNARK
50
0
51
0
71
0
72
1
73
0
0
TEXT
8
TEXT
62
18
6
CONTINUOUS
10
-23.45803133
20
-123.8457856
11
-23.45803133
21
-123.8457856
40
7.62
41
1.25
1
LATEEN
50
0
51
0
71
0
72
1
73
0
0
TEXT
8
TEXT
62
18
6
CONTINUOUS
10
-23.45803133
20
-133.3707856
11
-23.45803133
21
-133.3707856
40
7.62
41
1.25
1
45 sq. ft.
50
0
51
0
71
0
72
1
73
0
0
TEXT
8
TEXT
62
18
6
CONTINUOUS
10
-23.45803133
20
-142.8957856
11
-23.45803133
21
-142.8957856
40
7.62
41
1.25
1
Boom on Foot
50
0
51
0
71
0
72
1
73
0
0
TEXT
8
TEXT
62
18
6
CONTINUOUS
10
-23.45803133
20
-152.4207856
11
-23.45803133
21
-152.4207856
40
7.62
41
1.25
1
Bow ->
50
0
51
0
71
0
72
1
73
0
0
POLYLINE
8
DIMENSION
62
18
6
CONTINUOUS
66
1
40
0
41
0
0
VERTEX
8
DIMENSION
10
-154.8363706
20
-169.4952945
0
VERTEX
8
DIMENSION
10
-164.1984951
20
-163.7202945
0
SEQEND
8
DIMENSION
0
POLYLINE
8
DIMENSION
62
18
6
CONTINUOUS
66
1
40
0
41
0
0
VERTEX
8
DIMENSION
10
-14.81887056
20
57.49366927
0
VERTEX
8
DIMENSION
10
-24.18099505
20
63.26866927
0
SEQEND
8
DIMENSION
0
POLYLINE
8
DIMENSION
62
18
6
CONTINUOUS
66
1
40
0
41
0
70
1
0
VERTEX
8
DIMENSION
10
-163.3473928
20
-164.2452945
0
VERTEX
8
DIMENSION
10
-162.6825764
20
-163.4982878
0
VERTEX
8
DIMENSION
10
-162.9781611
20
-163.3159572
0
SEQEND
8
DIMENSION
0
POLYLINE
8
DIMENSION
62
18
6
CONTINUOUS
66
1
40
0
41
0
70
1
0
VERTEX
8
DIMENSION
10
-23.32989283
20
62.74366927
0
VERTEX
8
DIMENSION
10
-23.99470925
20
61.99666249
0
VERTEX
8
DIMENSION
10
-23.69912455
20
61.8143319
0
SEQEND
8
DIMENSION
0
POLYLINE
8
DIMENSION
62
18
6
CONTINUOUS
66
1
40
0
41
0
0
VERTEX
8
DIMENSION
10
-163.3473928
20
-164.2452945
0
VERTEX
8
DIMENSION
10
-23.32989283
20
62.74366927
0
SEQEND
8
DIMENSION
0
TEXT
8
DIMENSION
62
18
6
CONTINUOUS
10
-95.04084728
20
-49.70081264
11
-95.04084728
21
-49.70081264
40
4
41
1.25
1
10'6"
50
58.33175675
51
0
71
0
72
1
73
0
0
POLYLINE
8
DIMENSION
62
18
6
CONTINUOUS
66
1
40
0
41
0
0
VERTEX
8
DIMENSION
10
-14.81887381
20
57.49367127
0
VERTEX
8
DIMENSION
10
-4.988643131
20
62.42992135
0
SEQEND
8
DIMENSION
0
POLYLINE
8
DIMENSION
62
18
6
CONTINUOUS
66
1
40
0
41
0
0
VERTEX
8
DIMENSION
10
99.16362944
20
-169.4952945
0
VERTEX
8
DIMENSION
10
108.9938601
20
-164.5590445
0
SEQEND
8
DIMENSION
0
POLYLINE
8
DIMENSION
62
18
6
CONTINUOUS
66
1
40
0
41
0
70
1
0
VERTEX
8
DIMENSION
10
-5.882300465
20
61.98117134
0
VERTEX
8
DIMENSION
10
-5.595549947
20
61.02316605
0
VERTEX
8
DIMENSION
10
-5.285186012
20
61.17901529
0
SEQEND
8
DIMENSION
0
POLYLINE
8
DIMENSION
62
18
6
CONTINUOUS
66
1
40
0
41
0
70
1
0
VERTEX
8
DIMENSION
10
108.1002028
20
-165.0077945
0
VERTEX
8
DIMENSION
10
107.8134523
20
-164.0497892
0
VERTEX
8
DIMENSION
10
107.5030883
20
-164.2056384
0
SEQEND
8
DIMENSION
0
POLYLINE
8
DIMENSION
62
18
6
CONTINUOUS
66
1
40
0
41
0
0
VERTEX
8
DIMENSION
10
-5.882300465
20
61.98117134
0
VERTEX
8
DIMENSION
10
108.1002028
20
-165.0077945
0
SEQEND
8
DIMENSION
0
TEXT
8
DIMENSION
62
18
6
CONTINUOUS
10
52.89626583
20
-50.61581155
11
52.89626583
21
-50.61581155
40
4
41
1.25
1
10'0"
50
296.6635139
51
0
71
0
72
1
73
0
0
POLYLINE
8
DIMENSION
62
18
6
CONTINUOUS
66
1
40
0
41
0
0
VERTEX
8
DIMENSION
10
-154.8363706
20
-169.4952945
0
VERTEX
8
DIMENSION
10
-154.8363706
20
-180.4952945
0
SEQEND
8
DIMENSION
0
POLYLINE
8
DIMENSION
62
18
6
CONTINUOUS
66
1
40
0
41
0
0
VERTEX
8
DIMENSION
10
99.16362944
20
-169.4952945
0
VERTEX
8
DIMENSION
10
99.16362944
20
-180.4952945
0
SEQEND
8
DIMENSION
0
POLYLINE
8
DIMENSION
62
18
6
CONTINUOUS
66
1
40
0
41
0
70
1
0
VERTEX
8
DIMENSION
10
-154.8363706
20
-179.4952945
0
VERTEX
8
DIMENSION
10
-153.8515628
20
-179.6689427
0
VERTEX
8
DIMENSION
10
-153.8515628
20
-179.3216464
0
SEQEND
8
DIMENSION
0
POLYLINE
8
DIMENSION
62
18
6
CONTINUOUS
66
1
40
0
41
0
70
1
0
VERTEX
8
DIMENSION
10
99.16362944
20
-179.4952945
0
VERTEX
8
DIMENSION
10
98.17882169
20
-179.3216464
0
VERTEX
8
DIMENSION
10
98.17882169
20
-179.6689427
0
SEQEND
8
DIMENSION
0
POLYLINE
8
DIMENSION
62
18
6
CONTINUOUS
66
1
40
0
41
0
0
VERTEX
8
DIMENSION
10
-154.8363706
20
-179.4952945
0
VERTEX
8
DIMENSION
10
99.16362944
20
-179.4952945
0
SEQEND
8
DIMENSION
0
TEXT
8
DIMENSION
62
18
6
CONTINUOUS
10
-27.83637056
20
-177.4952945
11
-27.83637056
21
-177.4952945
40
4
41
1.25
1
10'0
50
0
51
0
71
0
72
1
73
0
0
ENDSEC
0
EOF
