 0
SECTION
 2
HEADER
 9
$ACADVER
 1
AC1009
 9
$LIMMIN
10
0.0
20
0.0
 9
$LIMMAX
10
410
20
287
 9
$LTSCALE
40
1.0
 9
$ATTMODE
70
0
 9
$DIMSCALE
40
1.0
 9
$DIMEXO
40
0.0
 9
$LUNITS
70
2
 9
$LUPREC
70
4
 9
$AUNITS
70
0
 9
$AUPREC
70
0
 9
$ELEVATION
40
0.0
 9
$THICKNESS
40
0.0
 9
$LIMCHECK
70
0
 9
$BLIPMODE
70
1
 9
$ANGBASE
50
0.0
 9
$ANGDIR
70
0
 9
$PDMODE
70
67
 9
$PDSIZE
40
-1
 9
$COORDS
70
2
 9
$DWGCODEPAGE
 3
iso8859-1
 0
ENDSEC
0
SECTION
2
TABLES
0
TABLE
2
LTYPE
70
10
0
LTYPE
2
CONTINUOUS
70
64
3
Default-Style
72
65
73
0
40
0
0
LTYPE
2
DASHED_LINE_WIDE
70
64
3
Dashed Line Wide
72
65
73
2
40
6.25
49
5
49
-1.25
0
LTYPE
2
DASHED_LINE_NARROW
70
64
3
Dashed Line Narrow
72
65
73
2
40
12.5
49
10
49
-2.5
0
LTYPE
2
DASH-DOT_LINE_WIDE
70
64
3
Dash-Dot Line Wide
72
65
73
4
40
13.75
49
10
49
-1.25
49
1.25
49
-1.25
0
LTYPE
2
DASH-DOT_LINE_NARROW
70
64
3
Dash-Dot line Narrow
72
65
73
4
40
27.5
49
20
49
-2.5
49
2.5
49
-2.5
0
LTYPE
2
DASH-DOT-DOT_LINE_WIDE
70
64
3
Dash-Dot-Dot Line Wide
72
65
73
6
40
16.25
49
10
49
-1.25
49
1.25
49
-1.25
49
1.25
49
-1.25
0
LTYPE
2
DASH-DOT-DOT_LINE_NARROW
70
64
3
Dash-Dot-Dot Line Narrow
72
65
73
6
40
32.5
49
20
49
-2.5
49
2.5
49
-2.5
49
2.5
49
-2.5
0
LTYPE
2
DOTTED_LINE_WIDE
70
64
3
Dotted Line Wide
72
65
73
2
40
6.25
49
1.25
49
-5
0
LTYPE
2
DOTTED_LINE_NARROW
70
64
3
Dotted Line Narrow
72
65
73
2
40
12.5
49
2.5
49
-10
0
LTYPE
2
GEOMETRY_LINE_1
70
64
3
Geometry Line 1
72
65
73
2
40
.5
49
.25
49
-0.25
0
ENDTAB
0
TABLE
2
LAYER
70
16
0
LAYER
2
0
70
64
62
7
6
CONTINUOUS
0
LAYER
2
DRAWING
70
64
62
18
6
CONTINUOUS
0
LAYER
2
HATCHING
70
64
62
18
6
CONTINUOUS
0
LAYER
2
DIMENSION
70
64
62
18
6
CONTINUOUS
0
LAYER
2
TEXT
70
64
62
18
6
CONTINUOUS
0
LAYER
2
BLOCK
70
64
62
18
6
CONTINUOUS
0
LAYER
2
MARKING
70
64
62
-132
6
CONTINUOUS
0
LAYER
2
GEOMETRY
70
64
62
18
6
CONTINUOUS
0
LAYER
2
DOCUMENTATION$DRAWING
70
64
62
18
6
CONTINUOUS
0
LAYER
2
DOCUMENTATION$HATCHING
70
64
62
18
6
CONTINUOUS
0
LAYER
2
DOCUMENTATION$DIMENSION
70
64
62
-18
6
CONTINUOUS
0
LAYER
2
DOCUMENTATION$TEXT
70
64
62
18
6
CONTINUOUS
0
LAYER
2
DOCUMENTATION$BLOCK
70
64
62
18
6
CONTINUOUS
0
LAYER
2
DOCUMENTATION$MARKING
70
64
62
18
6
CONTINUOUS
0
LAYER
2
DOCUMENTATION$GEOMETRY
70
64
62
18
6
CONTINUOUS
0
LAYER
2
FILL
70
64
62
-18
6
CONTINUOUS
0
ENDTAB
0
ENDSEC
0
SECTION
2
BLOCKS
0
ENDSEC
0
SECTION
2
ENTITIES
0
POLYLINE
8
DRAWING
62
18
6
CONTINUOUS
66
1
40
0
41
0
0
VERTEX
8
DRAWING
10
-32.09120317
20
71.60178058
0
VERTEX
8
DRAWING
10
-102.2793224
20
-168.1001504
0
SEQEND
8
DRAWING
0
POLYLINE
8
DRAWING
62
18
6
CONTINUOUS
66
1
40
0
41
0
0
VERTEX
8
DRAWING
10
-102.2793224
20
-168.1001504
0
VERTEX
8
DRAWING
10
103.0371756
20
-168.1001504
0
SEQEND
8
DRAWING
0
POLYLINE
8
DRAWING
62
18
6
CONTINUOUS
66
1
40
0
41
0
0
VERTEX
8
DRAWING
10
-32.09120317
20
71.60178058
0
VERTEX
8
DRAWING
10
103.0371756
20
-168.1001504
0
SEQEND
8
DRAWING
0
TEXT
8
TEXT
62
18
6
CONTINUOUS
10
-10.39279869
20
-111.3514145
11
-10.39279869
21
-111.3514145
40
7.62
41
1.25
1
BOLGER TORTOISE
50
0
51
0
71
0
72
1
73
0
0
TEXT
8
TEXT
62
18
6
CONTINUOUS
10
-10.39279869
20
-120.8764145
11
-10.39279869
21
-120.8764145
40
7.62
41
1.25
1
 LATEEN
50
0
51
0
71
0
72
1
73
0
0
TEXT
8
TEXT
62
18
6
CONTINUOUS
10
-10.39279869
20
-130.4014145
11
-10.39279869
21
-130.4014145
40
7.62
41
1.25
1
38 sq. ft.
50
0
51
0
71
0
72
1
73
0
0
TEXT
8
TEXT
62
18
6
CONTINUOUS
10
-10.39279869
20
-139.9264145
11
-10.39279869
21
-139.9264145
40
7.62
41
1.25
1
Grommets on Luff & Foot
50
0
51
0
71
0
72
1
73
0
0
TEXT
8
TEXT
62
18
6
CONTINUOUS
10
-10.39279869
20
-149.4514145
11
-10.39279869
21
-149.4514145
40
7.62
41
1.25
1
Bow ->
50
0
51
0
71
0
72
1
73
0
0
POLYLINE
8
DIMENSION
62
18
6
CONTINUOUS
66
1
40
0
41
0
0
VERTEX
8
DIMENSION
10
-32.09120317
20
71.60178058
0
VERTEX
8
DIMENSION
10
-22.50893337
20
77.00364187
0
SEQEND
8
DIMENSION
0
POLYLINE
8
DIMENSION
62
18
6
CONTINUOUS
66
1
40
0
41
0
0
VERTEX
8
DIMENSION
10
103.0371756
20
-168.1001504
0
VERTEX
8
DIMENSION
10
112.6194454
20
-162.6982891
0
SEQEND
8
DIMENSION
0
POLYLINE
8
DIMENSION
62
18
6
CONTINUOUS
66
1
40
0
41
0
70
1
0
VERTEX
8
DIMENSION
10
-23.3800488
20
76.51256357
0
VERTEX
8
DIMENSION
10
-23.0476987
20
75.56940748
0
VERTEX
8
DIMENSION
10
-22.74516348
20
75.73995719
0
SEQEND
8
DIMENSION
0
POLYLINE
8
DIMENSION
62
18
6
CONTINUOUS
66
1
40
0
41
0
70
1
0
VERTEX
8
DIMENSION
10
111.74833
20
-163.1893674
0
VERTEX
8
DIMENSION
10
111.4159798
20
-162.2462113
0
VERTEX
8
DIMENSION
10
111.1134446
20
-162.416761
0
SEQEND
8
DIMENSION
0
POLYLINE
8
DIMENSION
62
18
6
CONTINUOUS
66
1
40
0
41
0
0
VERTEX
8
DIMENSION
10
-23.3800488
20
76.51256357
0
VERTEX
8
DIMENSION
10
111.74833
20
-163.1893674
0
SEQEND
8
DIMENSION
0
TEXT
8
DIMENSION
62
18
6
CONTINUOUS
10
45.92637145
20
-42.3562453
11
45.92637145
21
-42.3562453
40
4
41
1.25
1
10'10"
50
299.4114797
51
0
71
0
72
1
73
0
0
POLYLINE
8
DIMENSION
62
18
6
CONTINUOUS
66
1
40
0
41
0
0
VERTEX
8
DIMENSION
10
-102.2793224
20
-168.1001504
0
VERTEX
8
DIMENSION
10
-102.2793224
20
-179.1001504
0
SEQEND
8
DIMENSION
0
POLYLINE
8
DIMENSION
62
18
6
CONTINUOUS
66
1
40
0
41
0
0
VERTEX
8
DIMENSION
10
103.0371756
20
-168.1001504
0
VERTEX
8
DIMENSION
10
103.0371756
20
-179.1001504
0
SEQEND
8
DIMENSION
0
POLYLINE
8
DIMENSION
62
18
6
CONTINUOUS
66
1
40
0
41
0
70
1
0
VERTEX
8
DIMENSION
10
-102.2793224
20
-178.1001504
0
VERTEX
8
DIMENSION
10
-101.2945146
20
-178.2737985
0
VERTEX
8
DIMENSION
10
-101.2945146
20
-177.9265022
0
SEQEND
8
DIMENSION
0
POLYLINE
8
DIMENSION
62
18
6
CONTINUOUS
66
1
40
0
41
0
70
1
0
VERTEX
8
DIMENSION
10
103.0371756
20
-178.1001504
0
VERTEX
8
DIMENSION
10
102.0523678
20
-177.9265022
0
VERTEX
8
DIMENSION
10
102.0523678
20
-178.2737985
0
SEQEND
8
DIMENSION
0
POLYLINE
8
DIMENSION
62
18
6
CONTINUOUS
66
1
40
0
41
0
0
VERTEX
8
DIMENSION
10
-102.2793224
20
-178.1001504
0
VERTEX
8
DIMENSION
10
103.0371756
20
-178.1001504
0
SEQEND
8
DIMENSION
0
TEXT
8
DIMENSION
62
18
6
CONTINUOUS
10
.3789266002
20
-176.1001504
11
.3789266002
21
-176.1001504
40
4
41
1.25
1
8'1"
50
0
51
0
71
0
72
1
73
0
0
POLYLINE
8
DIMENSION
62
18
6
CONTINUOUS
66
1
40
0
41
0
0
VERTEX
8
DIMENSION
10
-102.2793224
20
-168.1001504
0
VERTEX
8
DIMENSION
10
-112.8360603
20
-165.008988
0
SEQEND
8
DIMENSION
0
POLYLINE
8
DIMENSION
62
18
6
CONTINUOUS
66
1
40
0
41
0
0
VERTEX
8
DIMENSION
10
-32.09120317
20
71.60178058
0
VERTEX
8
DIMENSION
10
-42.64794109
20
74.69294291
0
SEQEND
8
DIMENSION
0
POLYLINE
8
DIMENSION
62
18
6
CONTINUOUS
66
1
40
0
41
0
70
1
0
VERTEX
8
DIMENSION
10
-111.8763569
20
-165.2900028
0
VERTEX
8
DIMENSION
10
-111.4329606
20
-164.3936771
0
VERTEX
8
DIMENSION
10
-111.7662621
20
-164.2960817
0
SEQEND
8
DIMENSION
0
POLYLINE
8
DIMENSION
62
18
6
CONTINUOUS
66
1
40
0
41
0
70
1
0
VERTEX
8
DIMENSION
10
-41.68823764
20
74.41192815
0
VERTEX
8
DIMENSION
10
-42.13163391
20
73.51560246
0
VERTEX
8
DIMENSION
10
-41.7983324
20
73.41800705
0
SEQEND
8
DIMENSION
0
POLYLINE
8
DIMENSION
62
18
6
CONTINUOUS
66
1
40
0
41
0
0
VERTEX
8
DIMENSION
10
-111.8763569
20
-165.2900028
0
VERTEX
8
DIMENSION
10
-41.68823764
20
74.41192815
0
SEQEND
8
DIMENSION
0
TEXT
8
DIMENSION
62
18
6
CONTINUOUS
10
-78.70170414
20
-44.87700781
11
-78.70170414
21
-44.87700781
40
4
41
1.25
1
9'10"
50
73.67922208
51
0
71
0
72
1
73
0
0
ENDSEC
0
EOF
